  0
SECTION
  2
HEADER
  9
$ACADVER
  1
AC1015
  9
$ACADMAINTVER
 70
     6
  9
$DWGCODEPAGE
  3
ANSI_1254
  9
$INSBASE
 10
0.0
 20
0.0
 30
0.0
  9
$EXTMIN
 10
0.0
 20
0.0
 30
0.0
  9
$EXTMAX
 10
279.4
 20
215.9
 30
0.0
  9
$LIMMIN
 10
0.0
 20
0.0
  9
$LIMMAX
 10
279.4
 20
215.9
  9
$ORTHOMODE
 70
     0
  9
$REGENMODE
 70
     1
  9
$FILLMODE
 70
     1
  9
$QTEXTMODE
 70
     0
  9
$MIRRTEXT
 70
     1
  9
$LTSCALE
 40
1.0
  9
$ATTMODE
 70
     1
  9
$TEXTSIZE
 40
3.5
  9
$TRACEWID
 40
1.0
  9
$TEXTSTYLE
  7
Standard
  9
$CLAYER
  8
0
  9
$CELTYPE
  6
ByLayer
  9
$CECOLOR
 62
   256
  9
$CELTSCALE
 40
1.0
  9
$DISPSILH
 70
     0
  9
$DIMSCALE
 40
1.0
  9
$DIMASZ
 40
3.5
  9
$DIMEXO
 40
1.0
  9
$DIMDLI
 40
3.75
  9
$DIMRND
 40
0.0
  9
$DIMDLE
 40
0.0
  9
$DIMEXE
 40
1.0
  9
$DIMTP
 40
0.0
  9
$DIMTM
 40
0.0
  9
$DIMTXT
 40
3.5
  9
$DIMCEN
 40
2.5
  9
$DIMTSZ
 40
0.0
  9
$DIMTOL
 70
     0
  9
$DIMLIM
 70
     0
  9
$DIMTIH
 70
     1
  9
$DIMTOH
 70
     1
  9
$DIMSE1
 70
     0
  9
$DIMSE2
 70
     0
  9
$DIMTAD
 70
     1
  9
$DIMZIN
 70
     0
  9
$DIMBLK
  1

  9
$DIMASO
 70
     1
  9
$DIMSHO
 70
     1
  9
$DIMPOST
  1

  9
$DIMAPOST
  1

  9
$DIMALT
 70
     0
  9
$DIMALTD
 70
     3
  9
$DIMALTF
 40
0.0393700787
  9
$DIMLFAC
 40
1.0
  9
$DIMTOFL
 70
     1
  9
$DIMTVP
 40
0.0
  9
$DIMTIX
 70
     0
  9
$DIMSOXD
 70
     0
  9
$DIMSAH
 70
     0
  9
$DIMBLK1
  1

  9
$DIMBLK2
  1

  9
$DIMSTYLE
  2
ISO-25
  9
$DIMCLRD
 70
     0
  9
$DIMCLRE
 70
     0
  9
$DIMCLRT
 70
     0
  9
$DIMTFAC
 40
1.0
  9
$DIMGAP
 40
1.524
  9
$DIMJUST
 70
     0
  9
$DIMSD1
 70
     0
  9
$DIMSD2
 70
     0
  9
$DIMTOLJ
 70
     0
  9
$DIMTZIN
 70
     0
  9
$DIMALTZ
 70
     0
  9
$DIMALTTZ
 70
     0
  9
$DIMUPT
 70
     0
  9
$DIMDEC
 70
     2
  9
$DIMTDEC
 70
     2
  9
$DIMALTU
 70
     2
  9
$DIMALTTD
 70
     3
  9
$DIMTXSTY
  7
Standard
  9
$DIMAUNIT
 70
     0
  9
$DIMADEC
 70
     2
  9
$DIMALTRND
 40
0.0
  9
$DIMAZIN
 70
     0
  9
$DIMDSEP
 70
    44
  9
$DIMATFIT
 70
     3
  9
$DIMFRAC
 70
     0
  9
$DIMLDRBLK
  1

  9
$DIMLUNIT
 70
     2
  9
$DIMLWD
 70
    -2
  9
$DIMLWE
 70
    -2
  9
$DIMTMOVE
 70
     0
  9
$LUNITS
 70
     2
  9
$LUPREC
 70
     2
  9
$SKETCHINC
 40
1.0
  9
$FILLETRAD
 40
10.0
  9
$AUNITS
 70
     0
  9
$AUPREC
 70
     2
  9
$MENU
  1
.
  9
$ELEVATION
 40
0.0
  9
$PELEVATION
 40
0.0
  9
$THICKNESS
 40
0.0
  9
$LIMCHECK
 70
     0
  9
$CHAMFERA
 40
0.0
  9
$CHAMFERB
 40
0.0
  9
$CHAMFERC
 40
0.0
  9
$CHAMFERD
 40
0.0
  9
$SKPOLY
 70
     0
  9
$TDCREATE
 40
2459935.699264444
  9
$TDUCREATE
 40
2459935.574264444
  9
$TDUPDATE
 40
2459935.69926463
  9
$TDUUPDATE
 40
2459935.57426463
  9
$TDINDWG
 40
0.0000000116
  9
$TDUSRTIMER
 40
0.0000000116
  9
$USRTIMER
 70
     1
  9
$ANGBASE
 50
0.0
  9
$ANGDIR
 70
     0
  9
$PDMODE
 70
     0
  9
$PDSIZE
 40
-1.0
  9
$PLINEWID
 40
0.0
  9
$SPLFRAME
 70
     0
  9
$SPLINETYPE
 70
     6
  9
$SPLINESEGS
 70
     8
  9
$HANDSEED
  5
EF
  9
$SURFTAB1
 70
     6
  9
$SURFTAB2
 70
     6
  9
$SURFTYPE
 70
     6
  9
$SURFU
 70
     6
  9
$SURFV
 70
     6
  9
$UCSBASE
  2

  9
$UCSNAME
  2

  9
$UCSORG
 10
0.0
 20
0.0
 30
0.0
  9
$UCSXDIR
 10
1.0
 20
0.0
 30
0.0
  9
$UCSYDIR
 10
0.0
 20
1.0
 30
0.0
  9
$UCSORTHOREF
  2

  9
$UCSORTHOVIEW
 70
     0
  9
$UCSORGTOP
 10
0.0
 20
0.0
 30
0.0
  9
$UCSORGBOTTOM
 10
0.0
 20
0.0
 30
0.0
  9
$UCSORGLEFT
 10
0.0
 20
0.0
 30
0.0
  9
$UCSORGRIGHT
 10
0.0
 20
0.0
 30
0.0
  9
$UCSORGFRONT
 10
0.0
 20
0.0
 30
0.0
  9
$UCSORGBACK
 10
0.0
 20
0.0
 30
0.0
  9
$PUCSBASE
  2

  9
$PUCSNAME
  2

  9
$PUCSORG
 10
0.0
 20
0.0
 30
0.0
  9
$PUCSXDIR
 10
1.0
 20
0.0
 30
0.0
  9
$PUCSYDIR
 10
0.0
 20
1.0
 30
0.0
  9
$PUCSORTHOREF
  2

  9
$PUCSORTHOVIEW
 70
     0
  9
$PUCSORGTOP
 10
0.0
 20
0.0
 30
0.0
  9
$PUCSORGBOTTOM
 10
0.0
 20
0.0
 30
0.0
  9
$PUCSORGLEFT
 10
0.0
 20
0.0
 30
0.0
  9
$PUCSORGRIGHT
 10
0.0
 20
0.0
 30
0.0
  9
$PUCSORGFRONT
 10
0.0
 20
0.0
 30
0.0
  9
$PUCSORGBACK
 10
0.0
 20
0.0
 30
0.0
  9
$USERI1
 70
     0
  9
$USERI2
 70
     0
  9
$USERI3
 70
     0
  9
$USERI4
 70
     0
  9
$USERI5
 70
     0
  9
$USERR1
 40
0.0
  9
$USERR2
 40
0.0
  9
$USERR3
 40
0.0
  9
$USERR4
 40
0.0
  9
$USERR5
 40
0.0
  9
$WORLDVIEW
 70
     1
  9
$SHADEDGE
 70
     3
  9
$SHADEDIF
 70
    70
  9
$TILEMODE
 70
     1
  9
$MAXACTVP
 70
    64
  9
$PINSBASE
 10
0.0
 20
0.0
 30
0.0
  9
$PLIMCHECK
 70
     0
  9
$PEXTMIN
 10
1.0000000000E+20
 20
1.0000000000E+20
 30
1.0000000000E+20
  9
$PEXTMAX
 10
-1.0000000000E+20
 20
-1.0000000000E+20
 30
-1.0000000000E+20
  9
$PLIMMIN
 10
0.0
 20
0.0
  9
$PLIMMAX
 10
420.0
 20
297.0
  9
$UNITMODE
 70
     0
  9
$VISRETAIN
 70
     1
  9
$PLINEGEN
 70
     0
  9
$PSLTSCALE
 70
     1
  9
$TREEDEPTH
 70
  3020
  9
$CMLSTYLE
  2
Standard
  9
$CMLJUST
 70
     0
  9
$CMLSCALE
 40
20.0
  9
$PROXYGRAPHICS
 70
     1
  9
$MEASUREMENT
 70
     1
  9
$CELWEIGHT
370
    -1
  9
$ENDCAPS
280
     0
  9
$JOINSTYLE
280
     0
  9
$LWDISPLAY
290
     1
  9
$INSUNITS
 70
     4
  9
$HYPERLINKBASE
  1

  9
$STYLESHEET
  1

  9
$XEDIT
290
     1
  9
$CEPSNTYPE
380
     0
  9
$PSTYLEMODE
290
     1
  9
$FINGERPRINTGUID
  2
{a1e2b506-a823-47d9-ae1a-8de28e97b227}
  9
$VERSIONGUID
  2
{FAEB1C32-E019-11D5-929B-00C0DF256EC4}
  9
$EXTNAMES
290
     1
  9
$PSVPSCALE
 40
0.0
  9
$OLESTARTUP
290
     0
  0
ENDSEC
  0
SECTION
  2
CLASSES
  0
CLASS
  1
ACDBDICTIONARYWDFLT
  2
AcDbDictionaryWithDefault
  3
ObjectDBX Classes
 90
        0
280
     0
281
     0
  0
CLASS
  1
VISUALSTYLE
  2
AcDbVisualStyle
  3
ObjectDBX Classes
 90
     4095
280
     0
281
     0
  0
CLASS
  1
MATERIAL
  2
AcDbMaterial
  3
ObjectDBX Classes
 90
     1153
280
     0
281
     0
  0
CLASS
  1
SCALE
  2
AcDbScale
  3
ObjectDBX Classes
 90
     1153
280
     0
281
     0
  0
CLASS
  1
TABLESTYLE
  2
AcDbTableStyle
  3
ObjectDBX Classes
 90
     4095
280
     0
281
     0
  0
CLASS
  1
MLEADERSTYLE
  2
AcDbMLeaderStyle
  3
ACDB_MLEADERSTYLE_CLASS
 90
     4095
280
     0
281
     0
  0
CLASS
  1
SUN
  2
AcDbSun
  3
SCENEOE
 90
     1153
280
     0
281
     0
  0
CLASS
  1
ACDBPLACEHOLDER
  2
AcDbPlaceHolder
  3
ObjectDBX Classes
 90
        0
280
     0
281
     0
  0
CLASS
  1
LAYOUT
  2
AcDbLayout
  3
ObjectDBX Classes
 90
        0
280
     0
281
     0
  0
ENDSEC
  0
SECTION
  2
TABLES
  0
TABLE
  2
VPORT
  5
8
330
0
100
AcDbSymbolTable
 70
     1
  0
VPORT
  5
29
330
8
100
AcDbSymbolTableRecord
100
AcDbViewportTableRecord
  2
*Active
 70
     0
 10
0.0
 20
0.0
 11
1.0
 21
1.0
 12
139.7
 22
107.95
 13
0.0
 23
0.0
 14
10.0
 24
10.0
 15
10.0
 25
10.0
 16
0.0
 26
0.0
 36
1.0
 17
0.0
 27
0.0
 37
0.0
 40
215.9
 41
1.2941176471
 42
50.0
 43
0.0
 44
0.0
 50
0.0
 51
0.0
 71
     0
 72
  2000
 73
     1
 74
     3
 75
     0
 76
     0
 77
     0
 78
     0
281
     0
 65
     1
110
0.0
120
0.0
130
0.0
111
1.0
121
0.0
131
0.0
112
0.0
122
1.0
132
0.0
 79
     0
146
0.0
  0
ENDTAB
  0
TABLE
  2
LTYPE
  5
5
330
0
100
AcDbSymbolTable
 70
     6
  0
LTYPE
  5
14
330
5
100
AcDbSymbolTableRecord
100
AcDbLinetypeTableRecord
  2
ByBlock
 70
     0
  3

 72
    65
 73
     0
 40
0.0
  0
LTYPE
  5
15
330
5
100
AcDbSymbolTableRecord
100
AcDbLinetypeTableRecord
  2
ByLayer
 70
     0
  3

 72
    65
 73
     0
 40
0.0
  0
LTYPE
  5
16
330
5
100
AcDbSymbolTableRecord
100
AcDbLinetypeTableRecord
  2
Continuous
 70
     0
  3
Solid line
 72
    65
 73
     0
 40
0.0
  0
LTYPE
  5
6E
330
5
100
AcDbSymbolTableRecord
100
AcDbLinetypeTableRecord
  2
HIDDEN
 70
     0
  3
Hidden __ __ __ __ __ __ __ __ __ __ __ __ __ __
 72
    65
 73
     2
 40
1.905
 49
1.27
 74
     0
 49
-0.635
 74
     0
  0
LTYPE
  5
6F
330
5
100
AcDbSymbolTableRecord
100
AcDbLinetypeTableRecord
  2
PHANTOM
 70
     0
  3
Phantom ______  __  __  ______  __  __  ______
 72
    65
 73
     6
 40
12.7
 49
6.35
 74
     0
 49
-1.27
 74
     0
 49
1.27
 74
     0
 49
-1.27
 74
     0
 49
1.27
 74
     0
 49
-1.27
 74
     0
  0
LTYPE
  5
70
330
5
100
AcDbSymbolTableRecord
100
AcDbLinetypeTableRecord
  2
CENTER
 70
     0
  3
Center ____ _ ____ _ ____ _ ____ _ ____ _ ____
 72
    65
 73
     4
 40
10.16
 49
6.35
 74
     0
 49
-1.27
 74
     0
 49
1.27
 74
     0
 49
-1.27
 74
     0
  0
LTYPE
  5
71
330
5
100
AcDbSymbolTableRecord
100
AcDbLinetypeTableRecord
  2
CENTERX2
 70
     0
  3
Center (2x) ________  __  ________  __  _____
 72
    65
 73
     4
 40
20.32
 49
12.7
 74
     0
 49
-2.54
 74
     0
 49
2.54
 74
     0
 49
-2.54
 74
     0
  0
LTYPE
  5
72
330
5
100
AcDbSymbolTableRecord
100
AcDbLinetypeTableRecord
  2
DOT2
 70
     0
  3
Dot (.5x) ........................................
 72
    65
 73
     2
 40
0.635
 49
0.0
 74
     0
 49
-0.635
 74
     0
  0
ENDTAB
  0
TABLE
  2
LAYER
  5
2
330
0
100
AcDbSymbolTable
 70
    17
  0
LAYER
  5
10
330
2
100
AcDbSymbolTableRecord
100
AcDbLayerTableRecord
  2
0
 70
     0
 62
     7
  6
Continuous
370
    -3
390
F
  0
LAYER
  5
73
330
2
100
AcDbSymbolTableRecord
100
AcDbLayerTableRecord
  2
FORMAT
 70
     0
 62
     7
  6
Continuous
370
    -3
390
F
  0
LAYER
  5
74
330
2
100
AcDbSymbolTableRecord
100
AcDbLayerTableRecord
  2
YARDIMCI_GEOMETRI
 70
     0
 62
    -6
  6
Continuous
290
     0
370
    -3
390
F
  0
LAYER
  5
75
330
2
100
AcDbSymbolTableRecord
100
AcDbLayerTableRecord
  2
SAYFA_CERCEVESI
 70
     0
 62
     7
  6
Continuous
370
    25
390
F
  0
LAYER
  5
76
330
2
100
AcDbSymbolTableRecord
100
AcDbLayerTableRecord
  2
ANTET
 70
     0
 62
     7
  6
Continuous
370
    -3
390
F
  0
LAYER
  5
77
330
2
100
AcDbSymbolTableRecord
100
AcDbLayerTableRecord
  2
OLCU
 70
     0
 62
   150
  6
Continuous
370
    -3
390
F
  0
LAYER
  5
78
330
2
100
AcDbSymbolTableRecord
100
AcDbLayerTableRecord
  2
METIN
 70
     0
 62
    96
  6
Continuous
370
    -3
390
F
  0
LAYER
  5
79
330
2
100
AcDbSymbolTableRecord
100
AcDbLayerTableRecord
  2
BALON
 70
     0
 62
     5
  6
Continuous
370
    -3
390
F
  0
LAYER
  5
7A
330
2
100
AcDbSymbolTableRecord
100
AcDbLayerTableRecord
  2
VURGU
 70
     0
 62
     7
  6
Continuous
370
    -3
390
F
  0
LAYER
  5
7B
330
2
100
AcDbSymbolTableRecord
100
AcDbLayerTableRecord
  2
SILIK
 70
     0
 62
     7
  6
Continuous
370
    -3
390
F
  0
LAYER
  5
7C
330
2
100
AcDbSymbolTableRecord
100
AcDbLayerTableRecord
  2
MODEL
 70
     0
 62
     7
  6
Continuous
370
    -3
390
F
  0
LAYER
  5
7D
330
2
100
AcDbSymbolTableRecord
100
AcDbLayerTableRecord
  2
DETAYLANDıRMA
 70
     0
 62
   190
  6
Continuous
370
    -3
390
F
  0
LAYER
  5
7E
330
2
100
AcDbSymbolTableRecord
100
AcDbLayerTableRecord
  2
TOLERANS
 70
     0
 62
   230
  6
Continuous
370
    -3
390
F
  0
LAYER
  5
7F
330
2
100
AcDbSymbolTableRecord
100
AcDbLayerTableRecord
  2
MERKEZ_CIZGILERI
 70
     0
 62
    30
  6
Continuous
370
    -3
390
F
  0
LAYER
  5
80
330
2
100
AcDbSymbolTableRecord
100
AcDbLayerTableRecord
  2
KESIT-DETAY_CIZGILERI
 70
     0
 62
     7
  6
Continuous
370
    -3
390
F
  0
LAYER
  5
81
330
2
100
AcDbSymbolTableRecord
100
AcDbLayerTableRecord
  2
\U+041E\U+0421\U+0415\U+0412\U+042B\U+0415
 70
     0
 62
     7
  6
Continuous
370
    -3
390
F
  0
LAYER
  5
82
330
2
100
AcDbSymbolTableRecord
100
AcDbLayerTableRecord
  2
\U+0412\U+041E\U+0414\U+042F\U+041D\U+042B\U+0415_\U+0417\U+041D\U+0410\U+041A\U+0418
 70
     0
 62
    11
  6
Continuous
370
    -3
390
F
  0
ENDTAB
  0
TABLE
  2
STYLE
  5
3
330
0
100
AcDbSymbolTable
 70
     1
  0
STYLE
  5
11
330
3
100
AcDbSymbolTableRecord
100
AcDbTextStyleTableRecord
  2
Standard
 70
     0
 40
0.0
 41
1.0
 50
0.0
 71
     0
 42
3.5
  3
txt
  4

  0
ENDTAB
  0
TABLE
  2
VIEW
  5
6
330
0
100
AcDbSymbolTable
 70
     0
  0
ENDTAB
  0
TABLE
  2
UCS
  5
7
330
0
100
AcDbSymbolTable
 70
     0
  0
ENDTAB
  0
TABLE
  2
APPID
  5
9
330
0
100
AcDbSymbolTable
 70
     1
  0
APPID
  5
12
330
9
100
AcDbSymbolTableRecord
100
AcDbRegAppTableRecord
  2
ACAD
 70
     0
  0
ENDTAB
  0
TABLE
  2
DIMSTYLE
  5
A
330
0
100
AcDbSymbolTable
 70
     1
100
AcDbDimStyleTable
  0
DIMSTYLE
105
27
330
A
100
AcDbSymbolTableRecord
100
AcDbDimStyleTableRecord
  2
ISO-25
 70
     0
 41
2.5
 42
0.625
 43
3.75
 44
1.25
 73
     0
 74
     0
 77
     1
 78
     8
140
2.5
141
2.5
143
0.0393700787
147
0.625
171
     3
172
     1
178
     0
271
     2
272
     2
274
     3
278
    44
283
     0
284
     8
340
11
  0
ENDTAB
  0
TABLE
  2
BLOCK_RECORD
  5
1
330
0
100
AcDbSymbolTable
 70
     5
  0
BLOCK_RECORD
  5
1F
330
1
100
AcDbSymbolTableRecord
100
AcDbBlockTableRecord
  2
*Model_Space
340
22
  0
BLOCK_RECORD
  5
1B
330
1
100
AcDbSymbolTableRecord
100
AcDbBlockTableRecord
  2
*Paper_Space
340
1E
  0
BLOCK_RECORD
  5
23
330
1
100
AcDbSymbolTableRecord
100
AcDbBlockTableRecord
  2
*Paper_Space0
340
26
  0
BLOCK_RECORD
  5
97
330
1
100
AcDbSymbolTableRecord
100
AcDbBlockTableRecord
  2
SW_CENTERMARKSYMBOL_0
340
0
102
{BLKREFS
331
A2
102
}
  0
BLOCK_RECORD
  5
AC
330
1
100
AcDbSymbolTableRecord
100
AcDbBlockTableRecord
  2
SW_CENTERMARKSYMBOL_1
340
0
102
{BLKREFS
331
B7
102
}
  0
BLOCK_RECORD
  5
BF
330
1
100
AcDbSymbolTableRecord
100
AcDbBlockTableRecord
  2
SW_CENTERMARKSYMBOL_2
340
0
102
{BLKREFS
331
CA
102
}
  0
BLOCK_RECORD
  5
D2
330
1
100
AcDbSymbolTableRecord
100
AcDbBlockTableRecord
  2
SW_CENTERMARKSYMBOL_3
340
0
102
{BLKREFS
331
DD
102
}
  0
ENDTAB
  0
ENDSEC
  0
SECTION
  2
BLOCKS
  0
BLOCK
  5
20
330
1F
100
AcDbEntity
  8
0
100
AcDbBlockBegin
  2
*Model_Space
 70
     0
 10
0.0
 20
0.0
 30
0.0
  3
*Model_Space
  1

  0
ENDBLK
  5
21
330
1F
100
AcDbEntity
  8
0
100
AcDbBlockEnd
  0
BLOCK
  5
1C
330
1B
100
AcDbEntity
 67
     1
  8
0
100
AcDbBlockBegin
  2
*Paper_Space
 70
     0
 10
0.0
 20
0.0
 30
0.0
  3
*Paper_Space
  1

  0
ENDBLK
  5
1D
330
1B
100
AcDbEntity
 67
     1
  8
0
100
AcDbBlockEnd
  0
BLOCK
  5
24
330
23
100
AcDbEntity
  8
0
100
AcDbBlockBegin
  2
*Paper_Space0
 70
     0
 10
0.0
 20
0.0
 30
0.0
  3
*Paper_Space0
  1

  0
ENDBLK
  5
25
330
23
100
AcDbEntity
  8
0
100
AcDbBlockEnd
  0
BLOCK
  5
98
330
97
100
AcDbEntity
  8
0
100
AcDbBlockBegin
  2
SW_CENTERMARKSYMBOL_0
 70
     0
 10
0.0
 20
0.0
 30
0.0
  3
SW_CENTERMARKSYMBOL_0
  1

  0
LINE
  5
9A
330
97
100
AcDbEntity
  8
FORMAT
 62
     0
100
AcDbLine
 10
0.0
 20
0.0
 30
0.0
 11
0.0
 21
2.5
 31
0.0
  0
LINE
  5
9B
330
97
100
AcDbEntity
  8
FORMAT
 62
     0
100
AcDbLine
 10
0.0
 20
0.0
 30
0.0
 11
-2.5
 21
0.0
 31
0.0
  0
LINE
  5
9C
330
97
100
AcDbEntity
  8
FORMAT
 62
     0
100
AcDbLine
 10
0.0
 20
0.0
 30
0.0
 11
0.0
 21
-2.5
 31
0.0
  0
LINE
  5
9D
330
97
100
AcDbEntity
  8
FORMAT
 62
     0
100
AcDbLine
 10
0.0
 20
0.0
 30
0.0
 11
2.5
 21
0.0
 31
0.0
  0
LINE
  5
9E
330
97
100
AcDbEntity
  8
FORMAT
 62
     0
100
AcDbLine
 10
0.0
 20
5.0
 30
0.0
 11
0.0
 21
12.5
 31
0.0
  0
LINE
  5
9F
330
97
100
AcDbEntity
  8
FORMAT
 62
     0
100
AcDbLine
 10
-5.0
 20
0.0
 30
0.0
 11
-12.5
 21
0.0
 31
0.0
  0
LINE
  5
A0
330
97
100
AcDbEntity
  8
FORMAT
 62
     0
100
AcDbLine
 10
0.0
 20
-5.0
 30
0.0
 11
0.0
 21
-12.5
 31
0.0
  0
LINE
  5
A1
330
97
100
AcDbEntity
  8
FORMAT
 62
     0
100
AcDbLine
 10
5.0
 20
0.0
 30
0.0
 11
12.5
 21
0.0
 31
0.0
  0
ENDBLK
  5
99
330
97
100
AcDbEntity
  8
0
100
AcDbBlockEnd
  0
BLOCK
  5
AD
330
AC
100
AcDbEntity
  8
0
100
AcDbBlockBegin
  2
SW_CENTERMARKSYMBOL_1
 70
     0
 10
0.0
 20
0.0
 30
0.0
  3
SW_CENTERMARKSYMBOL_1
  1

  0
LINE
  5
AF
330
AC
100
AcDbEntity
  8
FORMAT
 62
     0
100
AcDbLine
 10
0.0
 20
0.0
 30
0.0
 11
0.0
 21
2.5
 31
0.0
  0
LINE
  5
B0
330
AC
100
AcDbEntity
  8
FORMAT
 62
     0
100
AcDbLine
 10
0.0
 20
0.0
 30
0.0
 11
-2.5
 21
0.0
 31
0.0
  0
LINE
  5
B1
330
AC
100
AcDbEntity
  8
FORMAT
 62
     0
100
AcDbLine
 10
0.0
 20
0.0
 30
0.0
 11
0.0
 21
-2.5
 31
0.0
  0
LINE
  5
B2
330
AC
100
AcDbEntity
  8
FORMAT
 62
     0
100
AcDbLine
 10
0.0
 20
0.0
 30
0.0
 11
2.5
 21
0.0
 31
0.0
  0
LINE
  5
B3
330
AC
100
AcDbEntity
  8
FORMAT
 62
     0
100
AcDbLine
 10
0.0
 20
5.0
 30
0.0
 11
0.0
 21
12.5
 31
0.0
  0
LINE
  5
B4
330
AC
100
AcDbEntity
  8
FORMAT
 62
     0
100
AcDbLine
 10
-5.0
 20
0.0
 30
0.0
 11
-12.5
 21
0.0
 31
0.0
  0
LINE
  5
B5
330
AC
100
AcDbEntity
  8
FORMAT
 62
     0
100
AcDbLine
 10
0.0
 20
-5.0
 30
0.0
 11
0.0
 21
-12.5
 31
0.0
  0
LINE
  5
B6
330
AC
100
AcDbEntity
  8
FORMAT
 62
     0
100
AcDbLine
 10
5.0
 20
0.0
 30
0.0
 11
12.5
 21
0.0
 31
0.0
  0
ENDBLK
  5
AE
330
AC
100
AcDbEntity
  8
0
100
AcDbBlockEnd
  0
BLOCK
  5
C0
330
BF
100
AcDbEntity
  8
0
100
AcDbBlockBegin
  2
SW_CENTERMARKSYMBOL_2
 70
     0
 10
0.0
 20
0.0
 30
0.0
  3
SW_CENTERMARKSYMBOL_2
  1

  0
LINE
  5
C2
330
BF
100
AcDbEntity
  8
FORMAT
 62
     0
100
AcDbLine
 10
0.0
 20
0.0
 30
0.0
 11
0.0
 21
2.5
 31
0.0
  0
LINE
  5
C3
330
BF
100
AcDbEntity
  8
FORMAT
 62
     0
100
AcDbLine
 10
0.0
 20
0.0
 30
0.0
 11
-2.5
 21
0.0
 31
0.0
  0
LINE
  5
C4
330
BF
100
AcDbEntity
  8
FORMAT
 62
     0
100
AcDbLine
 10
0.0
 20
0.0
 30
0.0
 11
0.0
 21
-2.5
 31
0.0
  0
LINE
  5
C5
330
BF
100
AcDbEntity
  8
FORMAT
 62
     0
100
AcDbLine
 10
0.0
 20
0.0
 30
0.0
 11
2.5
 21
0.0
 31
0.0
  0
LINE
  5
C6
330
BF
100
AcDbEntity
  8
FORMAT
 62
     0
100
AcDbLine
 10
0.0
 20
5.0
 30
0.0
 11
0.0
 21
12.5
 31
0.0
  0
LINE
  5
C7
330
BF
100
AcDbEntity
  8
FORMAT
 62
     0
100
AcDbLine
 10
-5.0
 20
0.0
 30
0.0
 11
-12.5
 21
0.0
 31
0.0
  0
LINE
  5
C8
330
BF
100
AcDbEntity
  8
FORMAT
 62
     0
100
AcDbLine
 10
0.0
 20
-5.0
 30
0.0
 11
0.0
 21
-12.5
 31
0.0
  0
LINE
  5
C9
330
BF
100
AcDbEntity
  8
FORMAT
 62
     0
100
AcDbLine
 10
5.0
 20
0.0
 30
0.0
 11
12.5
 21
0.0
 31
0.0
  0
ENDBLK
  5
C1
330
BF
100
AcDbEntity
  8
0
100
AcDbBlockEnd
  0
BLOCK
  5
D3
330
D2
100
AcDbEntity
  8
0
100
AcDbBlockBegin
  2
SW_CENTERMARKSYMBOL_3
 70
     0
 10
0.0
 20
0.0
 30
0.0
  3
SW_CENTERMARKSYMBOL_3
  1

  0
LINE
  5
D5
330
D2
100
AcDbEntity
  8
FORMAT
 62
     0
100
AcDbLine
 10
0.0
 20
0.0
 30
0.0
 11
0.0
 21
2.5
 31
0.0
  0
LINE
  5
D6
330
D2
100
AcDbEntity
  8
FORMAT
 62
     0
100
AcDbLine
 10
0.0
 20
0.0
 30
0.0
 11
-2.5
 21
0.0
 31
0.0
  0
LINE
  5
D7
330
D2
100
AcDbEntity
  8
FORMAT
 62
     0
100
AcDbLine
 10
0.0
 20
0.0
 30
0.0
 11
0.0
 21
-2.5
 31
0.0
  0
LINE
  5
D8
330
D2
100
AcDbEntity
  8
FORMAT
 62
     0
100
AcDbLine
 10
0.0
 20
0.0
 30
0.0
 11
2.5
 21
0.0
 31
0.0
  0
LINE
  5
D9
330
D2
100
AcDbEntity
  8
FORMAT
 62
     0
100
AcDbLine
 10
0.0
 20
5.0
 30
0.0
 11
0.0
 21
12.5
 31
0.0
  0
LINE
  5
DA
330
D2
100
AcDbEntity
  8
FORMAT
 62
     0
100
AcDbLine
 10
-5.0
 20
0.0
 30
0.0
 11
-12.5
 21
0.0
 31
0.0
  0
LINE
  5
DB
330
D2
100
AcDbEntity
  8
FORMAT
 62
     0
100
AcDbLine
 10
0.0
 20
-5.0
 30
0.0
 11
0.0
 21
-12.5
 31
0.0
  0
LINE
  5
DC
330
D2
100
AcDbEntity
  8
FORMAT
 62
     0
100
AcDbLine
 10
5.0
 20
0.0
 30
0.0
 11
12.5
 21
0.0
 31
0.0
  0
ENDBLK
  5
D4
330
D2
100
AcDbEntity
  8
0
100
AcDbBlockEnd
  0
ENDSEC
  0
SECTION
  2
ENTITIES
  0
LINE
  5
83
330
1F
100
AcDbEntity
  8
0
  6
Continuous
 62
     7
370
    25
100
AcDbLine
 10
107.3381372123
 20
131.9058431394
 30
0.0
 11
107.3381372123
 21
78.9058431394
 31
0.0
  0
LINE
  5
84
330
1F
100
AcDbEntity
  8
0
  6
Continuous
 62
     7
370
    25
100
AcDbLine
 10
127.3381372123
 20
78.9058431394
 30
0.0
 11
127.3381372123
 21
131.9058431394
 31
0.0
  0
ARC
  5
85
330
1F
100
AcDbEntity
  8
0
  6
Continuous
 62
     7
370
    25
100
AcDbCircle
 10
127.3381372123
 20
131.9058431394
 30
0.0
 40
20.00000000000003
100
AcDbArc
 50
90.0
 51
180.0
  0
LINE
  5
86
330
1F
100
AcDbEntity
  8
0
  6
Continuous
 62
     7
370
    25
100
AcDbLine
 10
180.3381372123
 20
151.9058431394
 30
0.0
 11
127.3381372123
 21
151.9058431394
 31
0.0
  0
LINE
  5
87
330
1F
100
AcDbEntity
  8
0
  6
Continuous
 62
     7
370
    25
100
AcDbLine
 10
127.3381372123
 20
131.9058431394
 30
0.0
 11
180.3381372123
 21
131.9058431394
 31
0.0
  0
LINE
  5
88
330
1F
100
AcDbEntity
  8
0
  6
Continuous
 62
     7
370
    25
100
AcDbLine
 10
117.3381372123
 20
78.9058431394
 30
0.0
 11
127.3381372123
 21
78.9058431394
 31
0.0
  0
LINE
  5
89
330
1F
100
AcDbEntity
  8
0
  6
Continuous
 62
     7
370
    25
100
AcDbLine
 10
107.3381372123
 20
78.9058431394
 30
0.0
 11
117.3381372123
 21
78.9058431394
 31
0.0
  0
LINE
  5
8A
330
1F
100
AcDbEntity
  8
0
  6
Continuous
 62
     7
370
    25
100
AcDbLine
 10
180.3381372123
 20
141.9058431394
 30
0.0
 11
180.3381372123
 21
131.9058431394
 31
0.0
  0
LINE
  5
8B
330
1F
100
AcDbEntity
  8
0
  6
Continuous
 62
     7
370
    25
100
AcDbLine
 10
180.3381372123
 20
151.9058431394
 30
0.0
 11
180.3381372123
 21
141.9058431394
 31
0.0
  0
LINE
  5
8C
330
1F
100
AcDbEntity
  8
0
  6
Continuous
 62
     1
370
    25
100
AcDbLine
 10
107.3381372123
 20
131.9058431394
 30
0.0
 11
127.3381372123
 21
131.9058431394
 31
0.0
  0
LINE
  5
8D
330
1F
100
AcDbEntity
  8
0
  6
Continuous
 62
     1
370
    25
100
AcDbLine
 10
127.3381372123
 20
151.9058431394
 30
0.0
 11
127.3381372123
 21
131.9058431394
 31
0.0
  0
LINE
  5
8E
330
1F
100
AcDbEntity
  8
0
  6
Continuous
 62
     7
370
    25
100
AcDbLine
 10
51.9024747437
 20
141.9058431394
 30
0.0
 11
51.9024747437
 21
131.9058431394
 31
0.0
  0
LINE
  5
8F
330
1F
100
AcDbEntity
  8
0
  6
Continuous
 62
     7
370
    25
100
AcDbLine
 10
71.9024747437
 20
131.9058431394
 30
0.0
 11
71.9024747437
 21
141.9058431394
 31
0.0
  0
LINE
  5
90
330
1F
100
AcDbEntity
  8
0
  6
Continuous
 62
     7
370
    25
100
AcDbLine
 10
51.9024747437
 20
131.9058431394
 30
0.0
 11
51.9024747437
 21
78.9058431394
 31
0.0
  0
LINE
  5
91
330
1F
100
AcDbEntity
  8
0
  6
Continuous
 62
     7
370
    25
100
AcDbLine
 10
71.9024747437
 20
78.9058431394
 30
0.0
 11
71.9024747437
 21
131.9058431394
 31
0.0
  0
CIRCLE
  5
92
330
1F
100
AcDbEntity
  8
0
  6
Continuous
 62
     7
370
    25
100
AcDbCircle
 10
61.9024747437
 20
141.9058431394
 30
0.0
 40
10.00000000000001
  0
CIRCLE
  5
93
330
1F
100
AcDbEntity
  8
0
  6
Continuous
 62
     7
370
    25
100
AcDbCircle
 10
61.9024747437
 20
141.9058431394
 30
0.0
 40
7.000000000000007
  0
LINE
  5
94
330
1F
100
AcDbEntity
  8
0
  6
Continuous
 62
     7
370
    25
100
AcDbLine
 10
51.9024747437
 20
78.9058431394
 30
0.0
 11
71.9024747437
 21
78.9058431394
 31
0.0
  0
LINE
  5
95
330
1F
100
AcDbEntity
  8
0
  6
Continuous
 62
     1
370
    25
100
AcDbLine
 10
61.9024747437
 20
131.9058431394
 30
0.0
 11
71.9024747437
 21
131.9058431394
 31
0.0
  0
LINE
  5
96
330
1F
100
AcDbEntity
  8
0
  6
Continuous
 62
     1
370
    25
100
AcDbLine
 10
51.9024747437
 20
131.9058431394
 30
0.0
 11
61.9024747437
 21
131.9058431394
 31
0.0
  0
INSERT
  5
A2
330
1F
100
AcDbEntity
  8
FORMAT
 62
     7
100
AcDbBlockReference
  2
SW_CENTERMARKSYMBOL_0
 10
61.9024747437
 20
141.9058431394
 30
0.0
  0
LINE
  5
A3
330
1F
100
AcDbEntity
  8
0
  6
Continuous
 62
     7
370
    25
100
AcDbLine
 10
180.3381372123
 20
196.0041298662
 30
0.0
 11
127.3381372123
 21
196.0041298662
 31
0.0
  0
LINE
  5
A4
330
1F
100
AcDbEntity
  8
0
  6
Continuous
 62
     7
370
    25
100
AcDbLine
 10
127.3381372123
 20
176.0041298662
 30
0.0
 11
180.3381372123
 21
176.0041298662
 31
0.0
  0
LINE
  5
A5
330
1F
100
AcDbEntity
  8
0
  6
Continuous
 62
     7
370
    25
100
AcDbLine
 10
127.3381372123
 20
196.0041298662
 30
0.0
 11
117.3381372123
 21
196.0041298662
 31
0.0
  0
LINE
  5
A6
330
1F
100
AcDbEntity
  8
0
  6
Continuous
 62
     7
370
    25
100
AcDbLine
 10
117.3381372123
 20
176.0041298662
 30
0.0
 11
127.3381372123
 21
176.0041298662
 31
0.0
  0
CIRCLE
  5
A7
330
1F
100
AcDbEntity
  8
0
  6
Continuous
 62
     7
370
    25
100
AcDbCircle
 10
117.3381372123
 20
186.0041298662
 30
0.0
 40
7.0
  0
CIRCLE
  5
A8
330
1F
100
AcDbEntity
  8
0
  6
Continuous
 62
     7
370
    25
100
AcDbCircle
 10
117.3381372123
 20
186.0041298662
 30
0.0
 40
10.0
  0
LINE
  5
A9
330
1F
100
AcDbEntity
  8
0
  6
Continuous
 62
     7
370
    25
100
AcDbLine
 10
180.3381372123
 20
196.0041298662
 30
0.0
 11
180.3381372123
 21
176.0041298662
 31
0.0
  0
LINE
  5
AA
330
1F
100
AcDbEntity
  8
0
  6
Continuous
 62
     1
370
    25
100
AcDbLine
 10
127.3381372123
 20
186.0041298662
 30
0.0
 11
127.3381372123
 21
176.0041298662
 31
0.0
  0
LINE
  5
AB
330
1F
100
AcDbEntity
  8
0
  6
Continuous
 62
     1
370
    25
100
AcDbLine
 10
127.3381372123
 20
196.0041298662
 30
0.0
 11
127.3381372123
 21
186.0041298662
 31
0.0
  0
INSERT
  5
B7
330
1F
100
AcDbEntity
  8
FORMAT
 62
     7
100
AcDbBlockReference
  2
SW_CENTERMARKSYMBOL_1
 10
117.3381372123
 20
186.0041298662
 30
0.0
  0
LINE
  5
B8
330
1F
100
AcDbEntity
  8
0
  6
Continuous
 62
     7
370
    25
100
AcDbLine
 10
214.8710261247
 20
131.9058431394
 30
0.0
 11
214.8710261247
 21
78.9058431394
 31
0.0
  0
LINE
  5
B9
330
1F
100
AcDbEntity
  8
0
  6
Continuous
 62
     7
370
    25
100
AcDbLine
 10
234.8710261247
 20
78.9058431394
 30
0.0
 11
234.8710261247
 21
131.9058431394
 31
0.0
  0
LINE
  5
BA
330
1F
100
AcDbEntity
  8
0
  6
Continuous
 62
     7
370
    25
100
AcDbLine
 10
234.8710261247
 20
131.9058431394
 30
0.0
 11
234.8710261247
 21
141.9058431394
 31
0.0
  0
LINE
  5
BB
330
1F
100
AcDbEntity
  8
0
  6
Continuous
 62
     7
370
    25
100
AcDbLine
 10
214.8710261247
 20
141.9058431394
 30
0.0
 11
214.8710261247
 21
131.9058431394
 31
0.0
  0
LINE
  5
BC
330
1F
100
AcDbEntity
  8
0
  6
Continuous
 62
     7
370
    25
100
AcDbLine
 10
214.8710261247
 20
78.9058431394
 30
0.0
 11
234.8710261247
 21
78.9058431394
 31
0.0
  0
ARC
  5
BD
330
1F
100
AcDbEntity
  8
0
  6
Continuous
 62
     7
370
    25
100
AcDbCircle
 10
224.8710261247
 20
141.9058431394
 30
0.0
 40
10.00000000000003
100
AcDbArc
 50
0.0
 51
180.0
  0
LINE
  5
BE
330
1F
100
AcDbEntity
  8
0
  6
Continuous
 62
     1
370
    25
100
AcDbLine
 10
214.8710261247
 20
131.9058431394
 30
0.0
 11
234.8710261247
 21
131.9058431394
 31
0.0
  0
INSERT
  5
CA
330
1F
100
AcDbEntity
  8
FORMAT
 62
     7
100
AcDbBlockReference
  2
SW_CENTERMARKSYMBOL_2
 10
224.8710261247
 20
141.9058431394
 30
0.0
  0
LINE
  5
CB
330
1F
100
AcDbEntity
  8
0
  6
Continuous
 62
     7
370
    25
100
AcDbLine
 10
117.3381372123
 20
18.9998797597
 30
0.0
 11
127.3381372123
 21
18.9998797597
 31
0.0
  0
LINE
  5
CC
330
1F
100
AcDbEntity
  8
0
  6
Continuous
 62
     7
370
    25
100
AcDbLine
 10
127.3381372123
 20
38.9998797597
 30
0.0
 11
117.3381372123
 21
38.9998797597
 31
0.0
  0
LINE
  5
CD
330
1F
100
AcDbEntity
  8
0
  6
Continuous
 62
     7
370
    25
100
AcDbLine
 10
180.3381372123
 20
38.9998797597
 30
0.0
 11
127.3381372123
 21
38.9998797597
 31
0.0
  0
LINE
  5
CE
330
1F
100
AcDbEntity
  8
0
  6
Continuous
 62
     7
370
    25
100
AcDbLine
 10
127.3381372123
 20
18.9998797597
 30
0.0
 11
180.3381372123
 21
18.9998797597
 31
0.0
  0
ARC
  5
CF
330
1F
100
AcDbEntity
  8
0
  6
Continuous
 62
     7
370
    25
100
AcDbCircle
 10
117.3381372123
 20
28.9998797597
 30
0.0
 40
10.00000000000001
100
AcDbArc
 50
90.0
 51
270.0
  0
LINE
  5
D0
330
1F
100
AcDbEntity
  8
0
  6
Continuous
 62
     7
370
    25
100
AcDbLine
 10
180.3381372123
 20
38.9998797597
 30
0.0
 11
180.3381372123
 21
18.9998797597
 31
0.0
  0
LINE
  5
D1
330
1F
100
AcDbEntity
  8
0
  6
Continuous
 62
     1
370
    25
100
AcDbLine
 10
127.3381372123
 20
38.9998797597
 30
0.0
 11
127.3381372123
 21
18.9998797597
 31
0.0
  0
INSERT
  5
DD
330
1F
100
AcDbEntity
  8
FORMAT
 62
     7
100
AcDbBlockReference
  2
SW_CENTERMARKSYMBOL_3
 10
117.3381372123
 20
28.9998797597
 30
0.0
  0
LINE
  5
DE
330
1F
100
AcDbEntity
  8
0
  6
Continuous
 62
     7
370
    25
100
AcDbLine
 10
243.9781831383
 20
62.7461742818
 30
0.0
 11
206.5015237355
 21
41.1113593185
 31
0.0
  0
LINE
  5
DF
330
1F
100
AcDbEntity
  8
0
  6
Continuous
 62
     7
370
    25
100
AcDbLine
 10
216.5007110618
 20
23.7903820709
 30
0.0
 11
253.9773704647
 21
45.4251970342
 31
0.0
  0
LINE
  5
E0
330
1F
100
AcDbEntity
  8
0
  6
Continuous
 62
     7
370
    25
100
AcDbLine
 10
194.4300495868
 20
20.2034220167
 30
0.0
 11
194.4300495868
 21
-23.0732410132
 31
0.0
  0
LINE
  5
E1
330
1F
100
AcDbEntity
  8
0
  6
Continuous
 62
     7
370
    25
100
AcDbLine
 10
214.4300495868
 20
-23.0732410132
 30
0.0
 11
214.4300495868
 21
20.2034220167
 31
0.0
  0
SPLINE
  5
E2
330
1F
100
AcDbEntity
  8
0
  6
Continuous
 62
     7
370
    25
100
AcDbSpline
210
0.0
220
0.0
230
1.0
 70
     8
 71
     3
 72
    30
 73
    26
 74
     0
 42
0.00000001
 43
0.00000001
 40
0.0
 40
0.0
 40
0.0
 40
0.0
 40
0.0290328785107767
 40
0.0735895663632727
 40
0.1183065895619555
 40
0.163283955401768
 40
0.2083578716550145
 40
0.2534054147011217
 40
0.2983618535770257
 40
0.3431983792352845
 40
0.387916516788841
 40
0.432540941656515
 40
0.4771127512294125
 40
0.5216839205208277
 40
0.5663129133948064
 40
0.6110412058070721
 40
0.6559301021518218
 40
0.7010379454565682
 40
0.7464151590576302
 40
0.7920980433781455
 40
0.8381006203956444
 40
0.8844047671309146
 40
0.9309501807585193
 40
0.9776002216333521
 40
1.0
 40
1.0
 40
1.0
 40
1.0
 10
206.5015237354596
 20
41.11135931851008
 30
0.0
 10
206.2985126783269
 20
40.99121722961713
 30
0.0
 10
205.7839410468641
 20
40.68669336987212
 30
0.0
 10
204.9798564653635
 20
40.14943179758718
 30
0.0
 10
204.0934070865009
 20
39.49198582390344
 30
0.0
 10
203.23262766913
 20
38.78232132502668
 30
0.0
 10
202.3996461089244
 20
38.02460223223375
 30
0.0
 10
201.5981424006444
 20
37.22297507924669
 30
0.0
 10
200.8307123391381
 20
36.38161849842736
 30
0.0
 10
200.0992669329166
 20
35.50411537488323
 30
0.0
 10
199.4052660528526
 20
34.59363873040962
 30
0.0
 10
198.7499058146034
 20
33.65293273213631
 30
0.0
 10
198.1342655148102
 20
32.68437590398177
 30
0.0
 10
197.5594276623803
 20
31.69004557733325
 30
0.0
 10
197.0266466590966
 20
30.67193711214686
 30
0.0
 10
196.5373074110246
 20
29.63188965954058
 30
0.0
 10
196.0929744194778
 20
28.57164182135691
 30
0.0
 10
195.6953869910494
 20
27.49274543580799
 30
0.0
 10
195.3465892692165
 20
26.39682993273875
 30
0.0
 10
195.0489278962202
 20
25.2857606291604
 30
0.0
 10
194.8051706728477
 20
24.16186268212548
 30
0.0
 10
194.617992148491
 20
23.02812291598577
 30
0.0
 10
194.4915718719282
 20
21.88885796058848
 30
0.0
 10
194.4363757793811
 20
20.94626370643501
 30
0.0
 10
194.4315991322728
 20
20.38537458564508
 30
0.0
 10
194.4300495867745
 20
20.20342201673219
 30
0.0
  0
SPLINE
  5
E3
330
1F
100
AcDbEntity
  8
0
  6
Continuous
 62
     7
370
    25
100
AcDbSpline
210
0.0
220
0.0
230
1.0
 70
     8
 71
     3
 72
    24
 73
    20
 74
     0
 42
0.00000001
 43
0.00000001
 40
0.0
 40
0.0
 40
0.0
 40
0.0
 40
0.0596848626952612
 40
0.117455066508802
 40
0.1742073648135994
 40
0.2306646565855592
 40
0.2873527586968637
 40
0.3445190691733037
 40
0.4023027368387128
 40
0.4607170139369042
 40
0.5196442272435158
 40
0.578892146442657
 40
0.6381889122900262
 40
0.6974046628107096
 40
0.7565659037443521
 40
0.8159048297550051
 40
0.875843516976354
 40
0.9369247478617811
 40
0.9999999999999999
 40
0.9999999999999999
 40
0.9999999999999999
 40
0.9999999999999999
 10
214.4310802781644
 20
20.21144316325958
 30
0.0
 10
214.4329455138288
 20
20.23199145891808
 30
0.0
 10
214.4366161493824
 20
20.27242887175981
 30
0.0
 10
214.4573595729212
 20
20.40469641345884
 30
0.0
 10
214.4958016289068
 20
20.58288718472525
 30
0.0
 10
214.556531864721
 20
20.80642461918087
 30
0.0
 10
214.6422103764633
 20
21.06723336426322
 30
0.0
 10
214.7542874961744
 20
21.35756698248167
 30
0.0
 10
214.8925211426952
 20
21.6680107088546
 30
0.0
 10
215.0549552963091
 20
21.98843075790451
 30
0.0
 10
215.2377620437964
 20
22.30806185361925
 30
0.0
 10
215.4351620620321
 20
22.61589884173664
 30
0.0
 10
215.6396923783239
 20
22.90153409802097
 30
0.0
 10
215.8426963281271
 20
23.15596821732378
 30
0.0
 10
216.0348127961865
 20
23.37219088584461
 30
0.0
 10
216.2068538239682
 20
23.54571253553537
 30
0.0
 10
216.34824895257
 20
23.6732601298898
 30
0.0
 10
216.4547210972911
 20
23.75812265378294
 30
0.0
 10
216.4847850592925
 20
23.77886792922901
 30
0.0
 10
216.5000584621574
 20
23.78940715720626
 30
0.0
  0
LINE
  5
E4
330
1F
100
AcDbEntity
  8
0
  6
Continuous
 62
     7
370
    25
100
AcDbLine
 10
216.5040056075
 20
23.7922997
 30
0.0
 11
216.497184999
 21
23.7886374696
 31
0.0
  0
LWPOLYLINE
  5
E5
330
1F
100
AcDbEntity
  8
0
  6
Continuous
 62
     7
370
    25
100
AcDbPolyline
 90
       75
 70
   128
 43
0.0
 10
241.9067089897
 20
58.1677262171
 10
241.9321825925
 20
57.460545635
 10
242.008419863
 20
56.7290491094
 10
242.13487151
 20
55.9785070896
 10
242.3106264464
 20
55.2143272479
 10
242.5344183539
 20
54.4420155178
 10
242.8046348066
 20
53.6671364229
 10
243.1193288889
 20
52.8952729848
 10
243.4762332227
 20
52.1319864972
 10
243.872776304
 20
51.3827764569
 10
244.3061010309
 20
50.6530409394
 10
244.7730852887
 20
49.9480377056
 10
245.2703644452
 20
49.2728463202
 10
245.7943555928
 20
48.6323315525
 10
246.341283363
 20
48.0311083261
 10
246.907207129
 20
47.4735084682
 10
247.4880493968
 20
46.9635494984
 10
248.0796251848
 20
46.5049056828
 10
248.6776721757
 20
46.1008815606
 10
249.2778814273
 20
45.754388135
 10
249.8759284183
 20
45.4679218989
 10
250.4675042062
 20
45.2435468482
 10
251.0483464741
 20
45.0828796102
 10
251.61427024
 20
44.9870777961
 10
252.1611980103
 20
44.9568316601
 10
252.6851891578
 20
44.9923591264
 10
253.1824683144
 20
45.0934042187
 10
253.6494525722
 20
45.2592389048
 10
254.0827772991
 20
45.4886683421
 10
254.4793203804
 20
45.7800394861
 10
254.8362247141
 20
46.1312530011
 10
255.1509187964
 20
46.5397783857
 10
255.4211352492
 20
47.002672205
 10
255.6449271567
 20
47.5165992987
 10
255.8206820931
 20
48.07785681
 10
255.94713374
 20
48.6824008659
 10
256.0233710106
 20
49.3258757125
 10
256.0488446134
 20
50.0036450989
 10
256.0233710106
 20
50.710825681
 10
255.94713374
 20
51.4423222066
 10
255.8206820931
 20
52.1928642264
 10
255.6449271567
 20
52.9570440681
 10
255.4211352492
 20
53.7293557982
 10
255.1509187964
 20
54.5042348931
 10
254.8362247141
 20
55.2760983313
 10
254.4793203804
 20
56.0393848188
 10
254.0827772991
 20
56.7885948591
 10
253.6494525722
 20
57.5183303767
 10
253.1824683144
 20
58.2233336104
 10
252.6851891578
 20
58.8985249958
 10
252.1611980103
 20
59.5390397635
 10
251.61427024
 20
60.1402629899
 10
251.0483464741
 20
60.6978628478
 10
250.4675042062
 20
61.2078218177
 10
249.8759284183
 20
61.6664656332
 10
249.2778814273
 20
62.0704897554
 10
248.6776721757
 20
62.416983181
 10
248.0796251848
 20
62.7034494171
 10
247.4880493968
 20
62.9278244678
 10
246.907207129
 20
63.0884917058
 10
246.341283363
 20
63.1842935199
 10
245.7943555928
 20
63.2145396559
 10
245.2703644452
 20
63.1790121896
 10
244.7730852887
 20
63.0779670973
 10
244.3061010309
 20
62.9121324112
 10
243.872776304
 20
62.6827029739
 10
243.4762332227
 20
62.3913318299
 10
243.1193288889
 20
62.0401183149
 10
242.8046348066
 20
61.6315929303
 10
242.5344183539
 20
61.168699111
 10
242.3106264464
 20
60.6547720174
 10
242.13487151
 20
60.093514506
 10
242.008419863
 20
59.4889704501
 10
241.9321825925
 20
58.8454956035
 10
241.9067089897
 20
58.1677262171
  0
LWPOLYLINE
  5
E6
330
1F
100
AcDbEntity
  8
0
  6
Continuous
 62
     7
370
    25
100
AcDbPolyline
 90
       63
 70
   128
 43
0.0
 10
244.0280293332
 20
56.9431140494
 10
244.0534248868
 20
57.5067099548
 10
244.1293509547
 20
58.0352015215
 10
244.2550284327
 20
58.5231657109
 10
244.4291677
 20
58.9655953502
 10
244.6499818518
 20
59.3579505123
 10
244.9152050363
 20
59.6962051026
 10
245.2221157047
 20
59.9768881712
 10
245.5675645381
 20
60.1971195298
 10
245.9480067641
 20
60.3546393069
 10
246.3595385306
 20
60.4478311362
 10
246.7979369648
 20
60.4757387437
 10
247.2587035055
 20
60.4380757593
 10
247.7371100646
 20
60.3352286563
 10
248.2282475432
 20
60.1682527852
 10
248.7270762063
 20
59.9388615443
 10
249.2284773968
 20
59.6494087982
 10
249.7273060599
 20
59.3028647238
 10
250.2184435385
 20
58.9027853322
 10
250.6968500975
 20
58.4532759794
 10
251.1576166383
 20
57.9589492395
 10
251.5960150725
 20
57.424877574
 10
252.007546839
 20
56.8565412808
 10
252.387989065
 20
56.2597722592
 10
252.7334378984
 20
55.6406941672
 10
253.0403485667
 20
55.0056595836
 10
253.3055717512
 20
54.3611848226
 10
253.5263859031
 20
53.7138830673
 10
253.7005251703
 20
53.0703965098
 10
253.8262026484
 20
52.4373281928
 10
253.9021287163
 20
51.821174254
 10
253.9275242698
 20
51.2282572666
 10
253.9021287163
 20
50.6646613612
 10
253.8262026484
 20
50.1361697945
 10
253.7005251703
 20
49.6482056051
 10
253.5263859031
 20
49.2057759659
 10
253.3055717512
 20
48.8134208037
 10
253.0403485667
 20
48.4751662134
 10
252.7334378984
 20
48.1944831449
 10
252.387989065
 20
47.9742517862
 10
252.007546839
 20
47.8167320091
 10
251.5960150725
 20
47.7235401798
 10
251.1576166383
 20
47.6956325724
 10
250.6968500975
 20
47.7332955567
 10
250.2184435385
 20
47.8361426597
 10
249.7273060599
 20
48.0031185308
 10
249.2284773968
 20
48.2325097717
 10
248.7270762063
 20
48.5219625178
 10
248.2282475432
 20
48.8685065922
 10
247.7371100646
 20
49.2685859838
 10
247.2587035055
 20
49.7180953366
 10
246.7979369648
 20
50.2124220765
 10
246.3595385306
 20
50.746493742
 10
245.9480067641
 20
51.3148300353
 10
245.5675645381
 20
51.9115990568
 10
245.2221157047
 20
52.5306771488
 10
244.9152050363
 20
53.1657117324
 10
244.6499818518
 20
53.8101864934
 10
244.4291677
 20
54.4574882487
 10
244.2550284327
 20
55.1009748062
 10
244.1293509547
 20
55.7340431232
 10
244.0534248868
 20
56.350197062
 10
244.0280293332
 20
56.9431140494
  0
LINE
  5
E7
330
1F
100
AcDbEntity
  8
0
  6
Continuous
 62
     7
370
    25
100
AcDbLine
 10
211.4063245959
 20
24.3409190461
 30
0.0
 11
211.5011173986
 21
24.2854625758
 31
0.0
  0
LWPOLYLINE
  5
E8
330
1F
100
AcDbEntity
  8
0
  6
Continuous
 62
     7
370
    25
100
AcDbPolyline
 90
       75
 70
   128
 43
0.0
 10
197.3589817749
 20
-18.9912004541
 10
197.9841238205
 20
-18.6597248286
 10
198.655708909
 20
-18.3600486884
 10
199.3688982544
 20
-18.0943312069
 10
200.1185533111
 20
-17.8644868846
 10
200.8992727973
 20
-17.6721717551
 10
201.7054316111
 20
-17.5187714535
 10
202.5312213599
 20
-17.4053912323
 10
203.3706922096
 20
-17.3328479986
 10
204.2177957534
 20
-17.3016644282
 10
205.066428591
 20
-17.3120651993
 10
205.9104763033
 20
-17.3639753742
 10
206.7438575072
 20
-17.4570209388
 10
207.560567672
 20
-17.5905314978
 10
208.3547223822
 20
-17.7635451044
 10
209.120599735
 20
-17.9748151917
 10
209.8526815665
 20
-18.222819554
 10
210.5456932104
 20
-18.5057713139
 10
211.1946415018
 20
-18.8216317978
 10
211.7948507534
 20
-19.1681252234
 10
212.3419964439
 20
-19.5427550978
 10
212.8321363759
 20
-19.9428222041
 10
213.2617390801
 20
-20.3654440497
 10
213.6277092592
 20
-20.8075756345
 10
213.9274100895
 20
-21.2660313902
 10
214.1586822198
 20
-21.7375081326
 10
214.319859329
 20
-22.2186088611
 10
214.4097801324
 20
-22.7058672338
 10
214.4277967485
 20
-23.195772543
 10
214.3737793673
 20
-23.6847950098
 10
214.2481171851
 20
-24.1694112159
 10
214.0517156009
 20
-24.6461294907
 10
213.7859896925
 20
-25.1115150679
 10
213.4528540214
 20
-25.5622148339
 10
213.0547088375
 20
-25.9949814864
 10
212.5944227861
 20
-26.4066969319
 10
212.0753122386
 20
-26.7943947511
 10
211.5011173986
 20
-27.1552815723
 10
210.875975353
 20
-27.4867571978
 10
210.2043902645
 20
-27.786433338
 10
209.4912009192
 20
-28.0521508196
 10
208.7415458625
 20
-28.2819951418
 10
207.9608263763
 20
-28.4743102713
 10
207.1546675624
 20
-28.6277105729
 10
206.3288778136
 20
-28.7410907941
 10
205.489406964
 20
-28.8136340278
 10
204.6423034201
 20
-28.8448175982
 10
203.7936705825
 20
-28.8344168271
 10
202.9496228702
 20
-28.7825066522
 10
202.1162416664
 20
-28.6894610876
 10
201.2995315016
 20
-28.5559505287
 10
200.5053767914
 20
-28.382936922
 10
199.7394994385
 20
-28.1716668347
 10
199.007417607
 20
-27.9236624725
 10
198.3144059632
 20
-27.6407107125
 10
197.6654576718
 20
-27.3248502287
 10
197.0652484202
 20
-26.978356803
 10
196.5181027297
 20
-26.6037269286
 10
196.0279627976
 20
-26.2036598223
 10
195.5983600934
 20
-25.7810379767
 10
195.2323899144
 20
-25.338906392
 10
194.9326890841
 20
-24.8804506362
 10
194.7014169538
 20
-24.4089738938
 10
194.5402398446
 20
-23.9278731653
 10
194.4503190412
 20
-23.4406147926
 10
194.432302425
 20
-22.9507094834
 10
194.4863198063
 20
-22.4616870167
 10
194.6119819885
 20
-21.9770708105
 10
194.8083835727
 20
-21.5003525357
 10
195.074109481
 20
-21.0349669585
 10
195.4072451522
 20
-20.5842671926
 10
195.8053903361
 20
-20.15150054
 10
196.2656763875
 20
-19.7397850945
 10
196.7847869349
 20
-19.3520872753
 10
197.3589817749
 20
-18.9912004541
  0
LWPOLYLINE
  5
E9
330
1F
100
AcDbEntity
  8
0
  6
Continuous
 62
     7
370
    25
100
AcDbPolyline
 90
       63
 70
   128
 43
0.0
 10
199.4803021185
 20
-20.2158126218
 10
199.0049400264
 20
-20.5195543984
 10
198.5852468997
 20
-20.8495004553
 10
198.225529358
 20
-21.2022650996
 10
197.9294785898
 20
-21.5742284885
 10
197.7001324767
 20
-21.9615737745
 10
197.5398444202
 20
-22.3603262706
 10
197.4502591926
 20
-22.7663942367
 10
197.4322960597
 20
-23.175610866
 10
197.4861393474
 20
-23.5837770421
 10
197.6112365508
 20
-23.9867044276
 10
197.8063040033
 20
-24.3802584424
 10
198.0693400488
 20
-24.7604006897
 10
198.3976455816
 20
-25.1232303957
 10
198.7878517426
 20
-25.4650244364
 10
199.2359544886
 20
-25.7822755427
 10
199.7373556791
 20
-26.0717282888
 10
200.2869102593
 20
-26.3304124978
 10
200.8789790555
 20
-26.5556737198
 10
201.5074866408
 20
-26.7452004696
 10
202.1659836767
 20
-26.8970479465
 10
202.8477130927
 20
-27.0096579899
 10
203.5456794223
 20
-27.0818750682
 10
204.2527205866
 20
-27.1129581366
 10
204.9615813864
 20
-27.1025882407
 10
205.6649879506
 20
-27.0508717896
 10
206.3557223761
 20
-26.9583394642
 10
207.0266967929
 20
-26.8259407713
 10
207.6710260955
 20
-26.6550343007
 10
208.2820985934
 20
-26.447373784
 10
208.8536438559
 20
-26.2050900991
 10
209.3797970551
 20
-25.9306694046
 10
209.8551591472
 20
-25.626927628
 10
210.2748522738
 20
-25.2969815711
 10
210.6345698156
 20
-24.9442169269
 10
210.9306205838
 20
-24.5722535379
 10
211.1599666969
 20
-24.184908252
 10
211.3202547534
 20
-23.7861557558
 10
211.4098399809
 20
-23.3800877897
 10
211.4278031138
 20
-22.9708711604
 10
211.3739598261
 20
-22.5627049843
 10
211.2488626227
 20
-22.1597775988
 10
211.0537951703
 20
-21.766223584
 10
210.7907591248
 20
-21.3860813367
 10
210.462453592
 20
-21.0232516308
 10
210.072247431
 20
-20.68145759
 10
209.6241446849
 20
-20.3642064837
 10
209.1227434945
 20
-20.0747537376
 10
208.5731889143
 20
-19.8160695286
 10
207.981120118
 20
-19.5908083067
 10
207.3526125328
 20
-19.4012815568
 10
206.6941154968
 20
-19.2494340799
 10
206.0123860809
 20
-19.1368240365
 10
205.3144197512
 20
-19.0646069582
 10
204.607378587
 20
-19.0335238898
 10
203.8985177872
 20
-19.0438937857
 10
203.195111223
 20
-19.0956102368
 10
202.5043767975
 20
-19.1881425622
 10
201.8334023807
 20
-19.3205412551
 10
201.189073078
 20
-19.4914477257
 10
200.5780005801
 20
-19.6991082424
 10
200.0064553177
 20
-19.9413919273
 10
199.4803021185
 20
-20.2158126218
  0
ARC
  5
EA
330
1F
100
AcDbEntity
  8
0
  6
Continuous
 62
     1
370
    25
100
AcDbCircle
 10
214.4245220887
 20
28.3157461189
 30
0.0
 40
4.978903535840702
100
AcDbArc
 50
234.0443870094
 51
294.6451545615
  0
LWPOLYLINE
  5
EB
330
1F
100
AcDbEntity
  8
0
  6
Continuous
 62
     1
370
    25
100
AcDbPolyline
 90
       29
 70
   128
 43
0.0
 10
206.5015237355
 20
41.1113593185
 10
206.1930626237
 20
40.9098242416
 10
205.8159991693
 20
40.5882421558
 10
205.4798971219
 20
40.2080301221
 10
205.1871781047
 20
39.771927577
 10
204.9399511647
 20
39.2830766493
 10
204.7399975778
 20
38.7449995212
 10
204.5887580142
 20
38.1615730506
 10
204.4873221583
 20
37.5370008386
 10
204.4364208578
 20
36.8757829425
 10
204.4364208578
 20
36.1826834522
 10
204.4873221583
 20
35.4626961654
 10
204.5887580142
 20
34.7210086072
 10
204.7399975778
 20
33.9629646532
 10
204.9399511647
 20
33.1940260276
 10
205.1871781047
 20
32.4197329509
 10
205.4798971219
 20
31.6456642223
 10
205.8159991693
 20
30.8773970247
 10
206.1930626237
 20
30.1204667411
 10
206.6083707344
 20
29.3803270713
 10
207.058931197
 20
28.6623107386
 10
207.5414977129
 20
27.9715910673
 10
208.0525933794
 20
27.3131447083
 10
208.5885357405
 20
26.6917157828
 10
209.1454633192
 20
26.1117817004
 10
209.7193634395
 20
25.5775208995
 10
210.3061011379
 20
25.0927827414
 10
210.9014489558
 20
24.6610597755
 10
211.4063245959
 20
24.3409190461
  0
ARC
  5
EC
330
1F
100
AcDbEntity
  8
0
  6
Continuous
 62
     1
370
    25
100
AcDbCircle
 10
209.4732885645
 20
19.7386624351
 30
0.0
 40
4.978501913275922
100
AcDbArc
 50
5.3565496237
 51
65.9635913339
  0
LWPOLYLINE
  5
ED
330
1F
100
AcDbEntity
  8
0
  6
Continuous
 62
     1
370
    25
100
AcDbPolyline
 90
       29
 70
   128
 43
0.0
 10
194.4300495868
 20
20.2034220167
 10
194.4503190412
 20
20.5707957961
 10
194.5402398446
 20
21.0580541688
 10
194.7014169538
 20
21.5391548973
 10
194.9326890841
 20
22.0106316398
 10
195.2323899144
 20
22.4690873955
 10
195.5983600934
 20
22.9112189802
 10
196.0279627976
 20
23.3338408258
 10
196.5181027297
 20
23.7339079321
 10
197.0652484202
 20
24.1085378065
 10
197.6654576718
 20
24.4550312322
 10
198.3144059632
 20
24.770891716
 10
199.007417607
 20
25.053843476
 10
199.7394994385
 20
25.3018478382
 10
200.5053767914
 20
25.5131179255
 10
201.2995315016
 20
25.6861315322
 10
202.1162416664
 20
25.8196420911
 10
202.9496228702
 20
25.9126876558
 10
203.7936705825
 20
25.9645978306
 10
204.6423034201
 20
25.9749986017
 10
205.489406964
 20
25.9438150313
 10
206.3288778136
 20
25.8712717977
 10
207.1546675624
 20
25.7578915765
 10
207.9608263763
 20
25.6044912748
 10
208.7415458625
 20
25.4121761454
 10
209.4912009192
 20
25.1823318231
 10
210.2043902645
 20
24.9166143416
 10
210.875975353
 20
24.6169382013
 10
211.5011173986
 20
24.2854625758
  0
ENDSEC
  0
SECTION
  2
OBJECTS
  0
DICTIONARY
  5
C
330
0
100
AcDbDictionary
281
     1
  3
ACAD_GROUP
350
D
  3
ACAD_LAYOUT
350
1A
  3
ACAD_MLINESTYLE
350
17
  3
ACAD_PLOTSETTINGS
350
19
  3
ACAD_PLOTSTYLENAME
350
E
  3
ACAD_SCALELIST
350
47
  3
DWGPROPS
350
EE
  0
DICTIONARY
  5
D
102
{ACAD_REACTORS
330
C
102
}
330
C
100
AcDbDictionary
281
     1
  0
DICTIONARY
  5
1A
102
{ACAD_REACTORS
330
C
102
}
330
C
100
AcDbDictionary
281
     1
  3
Layout1
350
1E
  3
Layout2
350
26
  3
Model
350
22
  0
DICTIONARY
  5
17
102
{ACAD_REACTORS
330
C
102
}
330
C
100
AcDbDictionary
281
     1
  3
Standard
350
18
  0
DICTIONARY
  5
19
102
{ACAD_REACTORS
330
C
102
}
330
C
100
AcDbDictionary
281
     1
  0
ACDBDICTIONARYWDFLT
  5
E
102
{ACAD_REACTORS
330
C
102
}
330
C
100
AcDbDictionary
281
     1
  3
Normal
350
F
100
AcDbDictionaryWithDefault
340
F
  0
DICTIONARY
  5
47
102
{ACAD_REACTORS
330
C
102
}
330
C
100
AcDbDictionary
281
     1
  3
A0
350
48
  3
A1
350
49
  3
A2
350
4A
  3
A3
350
4B
  3
A4
350
4C
  3
A5
350
4D
  3
A6
350
4E
  3
A7
350
4F
  3
A8
350
50
  3
A9
350
51
  3
B0
350
52
  3
B1
350
53
  3
B2
350
54
  3
B3
350
55
  3
B4
350
56
  3
B5
350
57
  3
B6
350
58
  3
B7
350
59
  3
B8
350
5A
  3
B9
350
5B
  3
C0
350
5C
  3
C1
350
5D
  3
C2
350
5E
  3
C3
350
5F
  3
C4
350
60
  3
C5
350
61
  3
C6
350
62
  3
C7
350
63
  3
C8
350
64
  3
C9
350
65
  3
D0
350
66
  3
D1
350
67
  3
D2
350
68
  0
XRECORD
  5
EE
102
{ACAD_REACTORS
330
C
102
}
330
C
100
AcDbXrecord
280
     1
  1
DWGPROPS COOKIE
  2

  3

  4

  6

  7

  8
b.kav
  9

300
=
301
=
302
=
303
=
304
=
305
=
306
=
307
=
308
=
309
=
 40
0.0
 41
2459935.574264444
 42
2459935.57426463
  1

 90
        0
  0
LAYOUT
  5
1E
102
{ACAD_REACTORS
330
1A
102
}
330
1A
100
AcDbPlotSettings
  1

  2
none_device
  4

  6

 40
0.0
 41
0.0
 42
0.0
 43
0.0
 44
0.0
 45
0.0
 46
0.0
 47
0.0
 48
0.0
 49
0.0
140
0.0
141
0.0
142
1.0
143
1.0
 70
   688
 72
     1
 73
     0
 74
     5
  7

 75
    16
147
1.0
148
0.0
149
0.0
100
AcDbLayout
  1
Layout1
 70
     1
 71
     1
 10
0.0
 20
0.0
 11
420.0
 21
297.0
 12
0.0
 22
0.0
 32
0.0
 14
1.0000000000E+20
 24
1.0000000000E+20
 34
1.0000000000E+20
 15
-1.0000000000E+20
 25
-1.0000000000E+20
 35
-1.0000000000E+20
146
0.0
 13
0.0
 23
0.0
 33
0.0
 16
1.0
 26
0.0
 36
0.0
 17
0.0
 27
1.0
 37
0.0
 76
     0
330
1B
  0
LAYOUT
  5
26
102
{ACAD_REACTORS
330
1A
102
}
330
1A
100
AcDbPlotSettings
  1

  2
none_device
  4

  6

 40
0.0
 41
0.0
 42
0.0
 43
0.0
 44
0.0
 45
0.0
 46
0.0
 47
0.0
 48
0.0
 49
0.0
140
0.0
141
0.0
142
1.0
143
1.0
 70
   688
 72
     1
 73
     0
 74
     5
  7

 75
    16
147
1.0
148
0.0
149
0.0
100
AcDbLayout
  1
Layout2
 70
     1
 71
     2
 10
0.0
 20
0.0
 11
0.0
 21
0.0
 12
0.0
 22
0.0
 32
0.0
 14
0.0
 24
0.0
 34
0.0
 15
0.0
 25
0.0
 35
0.0
146
0.0
 13
0.0
 23
0.0
 33
0.0
 16
1.0
 26
0.0
 36
0.0
 17
0.0
 27
1.0
 37
0.0
 76
     0
330
23
  0
LAYOUT
  5
22
102
{ACAD_REACTORS
330
1A
102
}
330
1A
100
AcDbPlotSettings
  1

  2
none_device
  4
Letter_(8.50_x_11.00_Inches)
  6

 40
6.35
 41
6.35
 42
6.35000508
 43
6.35000508
 44
215.9
 45
279.4
 46
0.0
 47
0.0
 48
0.0
 49
0.0
140
0.0
141
0.0
142
1.0
143
1.0
 70
  1712
 72
     1
 73
     0
 74
     0
  7

 75
     0
147
1.0
148
0.0
149
0.0
100
AcDbLayout
  1
Model
 70
     1
 71
     0
 10
0.0
 20
0.0
 11
279.4
 21
215.9
 12
0.0
 22
0.0
 32
0.0
 14
0.0
 24
0.0
 34
0.0
 15
279.4
 25
215.9
 35
0.0
146
0.0
 13
0.0
 23
0.0
 33
0.0
 16
1.0
 26
0.0
 36
0.0
 17
0.0
 27
1.0
 37
0.0
 76
     0
330
1F
331
29
  0
MLINESTYLE
  5
18
102
{ACAD_REACTORS
330
17
102
}
330
17
100
AcDbMlineStyle
  2
Standard
 70
     0
  3

 62
   256
 51
90.0
 52
90.0
 71
     2
 49
0.5
 62
   256
  6
BYLAYER
 49
-0.5
 62
   256
  6
BYLAYER
  0
ACDBPLACEHOLDER
  5
F
102
{ACAD_REACTORS
330
E
102
}
330
E
  0
SCALE
  5
48
102
{ACAD_REACTORS
330
47
102
}
330
47
100
AcDbScale
 70
     0
300
1:1
140
1.0
141
1.0
290
     1
  0
SCALE
  5
49
102
{ACAD_REACTORS
330
47
102
}
330
47
100
AcDbScale
 70
     0
300
1:2
140
1.0
141
2.0
290
     0
  0
SCALE
  5
4A
102
{ACAD_REACTORS
330
47
102
}
330
47
100
AcDbScale
 70
     0
300
1:4
140
1.0
141
4.0
290
     0
  0
SCALE
  5
4B
102
{ACAD_REACTORS
330
47
102
}
330
47
100
AcDbScale
 70
     0
300
1:5
140
1.0
141
5.0
290
     0
  0
SCALE
  5
4C
102
{ACAD_REACTORS
330
47
102
}
330
47
100
AcDbScale
 70
     0
300
1:8
140
1.0
141
8.0
290
     0
  0
SCALE
  5
4D
102
{ACAD_REACTORS
330
47
102
}
330
47
100
AcDbScale
 70
     0
300
1:10
140
1.0
141
10.0
290
     0
  0
SCALE
  5
4E
102
{ACAD_REACTORS
330
47
102
}
330
47
100
AcDbScale
 70
     0
300
1:16
140
1.0
141
16.0
290
     0
  0
SCALE
  5
4F
102
{ACAD_REACTORS
330
47
102
}
330
47
100
AcDbScale
 70
     0
300
1:20
140
1.0
141
20.0
290
     0
  0
SCALE
  5
50
102
{ACAD_REACTORS
330
47
102
}
330
47
100
AcDbScale
 70
     0
300
1:30
140
1.0
141
30.0
290
     0
  0
SCALE
  5
51
102
{ACAD_REACTORS
330
47
102
}
330
47
100
AcDbScale
 70
     0
300
1:40
140
1.0
141
40.0
290
     0
  0
SCALE
  5
52
102
{ACAD_REACTORS
330
47
102
}
330
47
100
AcDbScale
 70
     0
300
1:50
140
1.0
141
50.0
290
     0
  0
SCALE
  5
53
102
{ACAD_REACTORS
330
47
102
}
330
47
100
AcDbScale
 70
     0
300
1:100
140
1.0
141
100.0
290
     0
  0
SCALE
  5
54
102
{ACAD_REACTORS
330
47
102
}
330
47
100
AcDbScale
 70
     0
300
2:1
140
2.0
141
1.0
290
     0
  0
SCALE
  5
55
102
{ACAD_REACTORS
330
47
102
}
330
47
100
AcDbScale
 70
     0
300
4:1
140
4.0
141
1.0
290
     0
  0
SCALE
  5
56
102
{ACAD_REACTORS
330
47
102
}
330
47
100
AcDbScale
 70
     0
300
8:1
140
8.0
141
1.0
290
     0
  0
SCALE
  5
57
102
{ACAD_REACTORS
330
47
102
}
330
47
100
AcDbScale
 70
     0
300
10:1
140
10.0
141
1.0
290
     0
  0
SCALE
  5
58
102
{ACAD_REACTORS
330
47
102
}
330
47
100
AcDbScale
 70
     0
300
100:1
140
100.0
141
1.0
290
     0
  0
SCALE
  5
59
102
{ACAD_REACTORS
330
47
102
}
330
47
100
AcDbScale
 70
     0
300
1/128" = 1'-0"
140
0.0078125
141
12.0
290
     0
  0
SCALE
  5
5A
102
{ACAD_REACTORS
330
47
102
}
330
47
100
AcDbScale
 70
     0
300
1/64" = 1'-0"
140
0.015625
141
12.0
290
     0
  0
SCALE
  5
5B
102
{ACAD_REACTORS
330
47
102
}
330
47
100
AcDbScale
 70
     0
300
1/32" = 1'-0"
140
0.03125
141
12.0
290
     0
  0
SCALE
  5
5C
102
{ACAD_REACTORS
330
47
102
}
330
47
100
AcDbScale
 70
     0
300
1/16" = 1'-0"
140
0.0625
141
12.0
290
     0
  0
SCALE
  5
5D
102
{ACAD_REACTORS
330
47
102
}
330
47
100
AcDbScale
 70
     0
300
3/32" = 1'-0"
140
0.09375
141
12.0
290
     0
  0
SCALE
  5
5E
102
{ACAD_REACTORS
330
47
102
}
330
47
100
AcDbScale
 70
     0
300
1/8" = 1'-0"
140
0.125
141
12.0
290
     0
  0
SCALE
  5
5F
102
{ACAD_REACTORS
330
47
102
}
330
47
100
AcDbScale
 70
     0
300
3/16" = 1'-0"
140
0.1875
141
12.0
290
     0
  0
SCALE
  5
60
102
{ACAD_REACTORS
330
47
102
}
330
47
100
AcDbScale
 70
     0
300
1/4" = 1'-0"
140
0.25
141
12.0
290
     0
  0
SCALE
  5
61
102
{ACAD_REACTORS
330
47
102
}
330
47
100
AcDbScale
 70
     0
300
3/8" = 1'-0"
140
0.375
141
12.0
290
     0
  0
SCALE
  5
62
102
{ACAD_REACTORS
330
47
102
}
330
47
100
AcDbScale
 70
     0
300
1/2" = 1'-0"
140
0.5
141
12.0
290
     0
  0
SCALE
  5
63
102
{ACAD_REACTORS
330
47
102
}
330
47
100
AcDbScale
 70
     0
300
3/4" = 1'-0"
140
0.75
141
12.0
290
     0
  0
SCALE
  5
64
102
{ACAD_REACTORS
330
47
102
}
330
47
100
AcDbScale
 70
     0
300
1" = 1'-0"
140
1.0
141
12.0
290
     0
  0
SCALE
  5
65
102
{ACAD_REACTORS
330
47
102
}
330
47
100
AcDbScale
 70
     0
300
1-1/2" = 1'-0"
140
1.5
141
12.0
290
     0
  0
SCALE
  5
66
102
{ACAD_REACTORS
330
47
102
}
330
47
100
AcDbScale
 70
     0
300
3" = 1'-0"
140
3.0
141
12.0
290
     0
  0
SCALE
  5
67
102
{ACAD_REACTORS
330
47
102
}
330
47
100
AcDbScale
 70
     0
300
6" = 1'-0"
140
6.0
141
12.0
290
     0
  0
SCALE
  5
68
102
{ACAD_REACTORS
330
47
102
}
330
47
100
AcDbScale
 70
     0
300
1'-0" = 1'-0"
140
12.0
141
12.0
290
     0
  0
ENDSEC
  0
EOF
